-------------------------------------------------------------------------------
SONG NAME - Hindi Mo Ba Alam?
-------------------------------------------------------------------------------
Tabbed by:George Uson
Email:george_uson@yahoo.com

Tuning:standard

Intro G,C 3x, D

G C G C
Hindi mo ba alam na ako'y nasasaktan
G C D
Sa tuwing ikaw ay aalis at hindi nag paalam
Em Bm Em Bm
Nais kong malaman mo na ako'y nag tatampo
C Am D
Pag nalimutan mo ang pasalubong ko

(same chords)
Hindi mo ba alam na ako'y nasasaktan
Pag nakikita kitang may ibang ka kwentuhan

Nais kong malaman mo na ako'y nandirito
Pwede ba ako kahit maki usyoso

Chorus
C D Bm Em
Ngunit pag sapit ng gabi heto ka sa 'king tabi
Am D G G7
Sa pag ibig mo 'di ako nag sisisi
C D Bm
At pag gising sa umaga maamo mong
Em
mukha ang nakikita
Am D G
Na sa akin ay lubos na nagpa-paligaya.

Guitar G, C 3x, D

(same chords)
Hindi mo ba alam na ako'y nasasaktan
Sa tuwing ika'y na lulungkot at mata ay luhaan
Nais kong malaman mo yan ay pupunasan ko
Sa katapatan ng pagmamahal ko sa iyo.

Repeat Chorus
Solo part

e|---------------------8-7--7--10-8-7--5--7-8--------------------------------|
B|-----------7--5s7--7---------------------------------7-10-11---------------|
G|-----4-5-7---------------------------------------7-9---------7-9-----------|
D|-5-7----------------------------------------7-10---------------------------|
A|---------------------------------------------------------------------------|
E|---------------------------------------------------------------------------|

e|-7h9h7------7--7h9h7------7------------------------------------------------|
B|-------9-7--7--------9-7--7--------5-7-8-8s10--8-7-8-----------------------|
G|-----------------------------5-6-8--------------------10-8-7-5-------------|
D|---------------------------------------------------------------8-7-5-------|
A|---------------------------------------------------------------------8-7-5-|
E|---------------------------------------------------------------------------|

e|---------------------------------------------------------------------------|
B|-3-2-----------------------------------------------------------------------|
G|---------------------------------------------------------------------------|
D|---------------------------------------------------------------------------|
A|---------------------------------------------------------------------------|
E|---------------------------------------------------------------------------|

Repeat Chorus

Hindi mo ba alam?

|| print chords || correct text || send link


This guitar chords was posted by flex0082000



View all chords by Siakol